• <p id="pi64j"></p>
    <acronym id="pi64j"></acronym>

        <track id="pi64j"></track>
      1. <acronym id="pi64j"></acronym>
        首頁 / 吉它

        《天空之城》單音版吉他譜,輕松掌握旋律!

        2023-07-09吉它作者:admin來源:http://www.shetlerroofingandconstruction.com/閱讀

        《天空之城》單音版吉他譜,輕松掌握旋律!

        在吉他愛好者中,《天空之城》是一首非常受歡迎的曲子,但是很多初學者不知道怎么彈奏。今天,我們來分享一個單音版吉他譜,讓大家輕松掌握這首旋律。

        《天空之城》單音版吉他譜,輕松掌握旋律!

        調式和節奏

        《天空之城》的調式為C大調,采用4/4拍子。如果你不熟悉調式和節奏,可以先去了解一下。

        單音版吉他譜

        下面是《天空之城》的單音版吉他譜:

        E|-------------------------------------------0-1-0-------------------

        B|-------------------------------------1-3---------3-1-------------

        G|-----------------------------0-2-0---------------------2-0--------

        D|-----------------------0-2---------------------------------2-0--

        A|-----------------0-3---------------------------------------------3

        E|-------0-1-0-3-----------------------------------------------------

        E|-----------0-1-0---------------------------------------------------

        B|-----1-3---------3-1---------------------------------------------

        G|-0-2-------------------2-0---------------------------------------

        D|---------------------------2-0-----------------------------------

        A|-------------------------------3-0-------------------------------

        E|-----------------------------------3-1-0---------------------------

        E|-------------------------------------------0-1-0-------------------

        B|-------------------------------------1-3---------3-1-------------

        G|-----------------------------0-2-0---------------------2-0--------

        D|-----------------------0-2---------------------------------2-0--

        A|-----------------0-3---------------------------------------------3

        E|-------0-1-0-3-----------------------------------------------------

        E|-----------0-1-0---------------------------------------------------

        B|-----1-3---------3-1---------------------------------------------

        G|-0-2-------------------2-0---------------------------------------

        D|---------------------------2-0-----------------------------------

        A|-------------------------------3-0-------------------------------

        E|-----------------------------------3-1-0---------------------------

        E|-----------0-1-0----------------------------------------

        B|-----1-3---------3-1--------------------------------------

        G|-0-2-------------------2-0--------------------------------

        D|---------------------------2-0----------------------------

        A|-------------------------------3-0-2-0--------------------

        E|---------------------------------------3-1-0-1-0-----------

        E|-----------0-1-0-----------------------------------------

        B|-----1-3---------3-1---------------------------------------

        G|-0-2-------------------2-0---------------------------------

        D|---------------------------2-0-----------------------------

        A|-------------------------------3-0-2-0---------------------

        E|---------------------------------------3-1-0---------------

        E|-------------------------------------------0-1-0-------------------

        B|-------------------------------------1-3---------3-1-------------

        G|-----------------------------0-2-0---------------------2-0--------

        D|-----------------------0-2---------------------------------2-0--

        A|-----------------0-3---------------------------------------------3

        E|-------0-1-0-3-----------------------------------------------------

        E|-----------0-1-0---------------------------------------------------

        B|-----1-3---------3-1---------------------------------------------

        G|-0-2-------------------2-0---------------------------------------

        D|---------------------------2-0-----------------------------------

        A|-------------------------------3-0-------------------------------

        E|-----------------------------------3-1-0---------------------------

        上面的譜子是單音版的,因此只需要按照數字指示彈奏即可。比如,E弦上第3品位的音符就是3,G弦上第2品位的音符就是2。

        練習技巧

        練習這首曲子,需要注意以下幾點:

        • 先練習單拍,再逐漸加速。
        • 注意每個音符的節奏和時值,保持穩定的節奏。
        • 適當加入掃弦和音,增強整體的音樂感。

        練習過程中,需要耐心和恒心,不要急于求成。只要堅持練習,定會取得進步。

        總結

        以上就是《天空之城》單音版吉他譜的分享。學習這首曲子,不僅能夠提高吉他技巧,還能夠享受到美妙的音樂。希望大家能夠喜歡這首曲子,也能夠堅持練習。

        本站文章均來自互聯網,僅供學習參考,如有侵犯您的版權,請郵箱聯系我們刪除!

        猜你喜歡

        • 吉它

          《夏之風》完整版歌詞感受夏天輕盈的風,讓心情變得舒暢,隨著風兒飄蕩,任意翱翔,讓我們一起享受這個美好的夏天。

          《夏之風》完整版歌詞感受夏天輕盈的風,讓心情變得舒暢,隨著風兒飄蕩,任意翱翔,讓我們一起享受這個美好的夏天。夏天的氣息,輕盈而又炙熱,仿佛讓我們置身于一片慵懶的海灘上,感受著那清涼的海風,熱情的陽光,讓我們

          2023-07-09 102
        • 吉它

          《卡農吉他譜d調彈奏美妙旋律的必備譜子》

          卡農吉他譜d調:彈奏美妙旋律的必備譜子卡農是一首流傳很廣的古典音樂作品,也是吉他愛好者們非常喜歡彈奏的曲子之一。在這篇文章中,我們將為大家分享卡農吉他譜d調,幫助大家輕松地彈奏出美妙的旋律??ㄞr吉他譜d調首先,我們來看一下卡農吉他譜d調的譜子:E|----------2--3--2------------------------|-----------------------B|-------3-

          2023-07-09 136
        • 吉它

          《只要你還需要我》吉他譜輕松掌握的彈奏技巧

          只要你還需要我吉他譜:輕松掌握的彈奏技巧《只要你還需要我》是一首非常經典的歌曲,吉他伴奏也非常簡單,適合初學者練習。下面我們來詳細介紹這首歌曲的彈奏技巧。XX這首歌曲只需要三個XX:G、D、C。下面是它們的手位圖:GXX:(3)20003DXX:(X)X0232CXX:X32010彈奏這首歌曲的節奏比較簡單,每小節有四拍,每拍相同,都是一

          2023-07-09 108
        • 吉它

          《天空之城》單音版吉他譜,輕松掌握旋律!

          《天空之城》單音版吉他譜,輕松掌握旋律!在吉他愛好者中,《天空之城》是一首非常受歡迎的曲子,但是很多初學者不知道怎么彈奏。今天,我們來分享一個單音版吉他譜,讓大家輕松掌握這首旋律。調式和節奏《天空之城》的調式為C大調,采用4/4拍子。如果你不熟悉調式和節奏,可以先去了解一下。單音版吉他譜下面是《天空之城》的單音版吉他譜:E|----------

          2023-07-09 150
        日韩黄色电影免费在线视频_美女少妇午夜精品视频_三级黃60分钟黄色午夜_免费在线视频黄色
      2. <p id="pi64j"></p>
        <acronym id="pi64j"></acronym>

            <track id="pi64j"></track>
          1. <acronym id="pi64j"></acronym>